[[跳高教学视频|taylor swift-love story吉彵譜

分类: 百人新闻 作者: 时间:2020-05-03 02:11:57

這個教學視頻很直觀,基夲遵循原蝂!
http://v.youku.com/v_show/id_XMjM3MjE5NDA0.html


Taylor Swift
Love Story
Capo 2 (this is the way Taylor plays it)


Intro:

E||-------0-----0-----------|-------0-----0-----------|
B||----------3-----3-----3--|----------3-----3-----3--|
G||-----2-------------2-----|-----2-------------2-----|
D||--4----------------------|--4----------------------|
A||-------------------------|-------------------------|
E||-------------------------|-------------------------|


--------0-----0-----------|--------0-----0-----------|
-----------3-----3-----3--|-----------3-----3-----3--|
-----2--------------2-----|-----2--------------2-----|
--2-----------------------|--2-----------------------|
--------------------------|--------------------------|
--------------------------|--------------------------|


--------0-----0-----------|--------0-----0-----------|
-----------3-----3-----3--|-----------3-----3-----3--|
-----4--------------4-----|-----4--------------4-----|
--4-----------------------|--4-----------------------|
--------------------------|--------------------------|
--------------------------|--------------------------|


--------0-----0-----------|--------0-----0-----------|
-----------3-----3-----3--|-----------3-----3-----3--|
-----2--------------2-----|-----2--------------2-----|
--5-----------------------|--5-----------------------|
--------------------------|--------------------------|
--------------------------|--------------------------|
Intro: C G Am F

C
We were both young when i first saw you
F
I close my eyes and the flashback starts
Am F
Im standing there on a balcony of summer air

C
See the lights, See the party the ball gowns
F
I see you make your way through the crowd
Am
You say hello
G
Little did i know

F G
That you were romeo you were throwing pebbles
Am C
And my daddy said stay away from Juliet
F
And i was crying on the staircase
G Am C
Begging you please don't go, and i said

C
Romeo take me somewhere we can be alone
G
I'll be waiting all theres left to do is run
Am
You'll be the prince and i'll be the princess
F G C
Its a love story baby just say yes

C
So i sneak out to the garden to see you
F
We keep quite because we're dead if they know
Am
So close your eyes
G
escape this down for a little while
F G
Cause you were Romeo I was a scarlet letter
Am C
and my daddy said stay away from Juliet


F
But you were everything to me
G Am C
and i was begging you please don't go and i said

C
Romeo take me somewhere we can be alone
G
I'll be waiting all theres left to do is run
Am
You be the prince i'll be the princess
F G C
Its a love story baby just say yes

C
Romeo save me, they try to tell me how this feel
G
This love is difficult, but its real,
Am
dont be afraid we'll make it out of this mess
F G
Its a love story baby just say yes, oh

Solo: C G Am F

Am F C G
I got tired of waiting, wondering if you were ever coming around
Am F
My faith in you was fading
C G
Then i met you on the outskirts of town and i said
C
Romeo save me i've been feeling so alone
G
I keep waiting for you but you never come
Am
Is this in my head, i don't know what to think
F G
He nelt to the ground and pulled out a ring and said
D
Marry me Juliet you'll never have to be alone
A
I love you and thats all I really know
Bm
I talked to your dad go pick out a white dress
G A D
Its a love story baby just say yes
D A Bm
Oh, oh, yes
G D
We were very young when i first saw you

标签: